Tablature:NB x MM

From MansonWiki, the Marilyn Manson encyclopedia
Jump to: navigation, search

Guitar[edit]

guitar tablature for NB x MM
Tuning standard
Tabbed by Behnam Dabestanizade


                                                         P
   e|-0-0-0-0-0-0-0-0-|-0-0-0-0-0-0-0-0-|-0-0-0-0-0-0-0-0-|-/ \-0-0-0-0-0-0-|
   B|-5-5-5-5-5-5-5-5-|-5-4-4-4-4-4-4-4-|-4-1-1-1-1-1-1-1-|-1-0-0-0-0-0-0-0-|
   G|-----------------|-----------------|-----------------|-----------------|
   D|-----------------|-----------------|-----------------|-----------------|
   A|-----------------|-----------------|-----------------|-----------------|
   E|-----------------|-----------------|-----------------|-----------------|
   
   e|-0-0-0-0-0-0-0-0-|-0-0-0-0-0-0-0-0-|-0-0-0-0-0-0-0-0-|-/ \-0-0-0-0-0-0-|
   B|-5-5-5-5-5-5-5-5-|-5-4-4-4-4-4-4-4-|-4-1-1-1-1-1-1-1-|-1-0-0-0-0-0-0-0-|
   G|-----------------|-----------------|-----------------|-----------------|
   D|-----------------|-----------------|-----------------|-----------------|
   A|-----------------|-----------------|-----------------|-----------------|
   E|-----------------|-----------------|-----------------|-----------------|
   
   e|-----------------|-----------------|-----------------|-----------------|
   B|-----------------|-----------------|-----------------|-----------------|
   G|-7-------7-------|-7-------7-------|-7-------7-------|-7-------7-------|
   D|-7-------7-------|-7-------7-------|-7-------7-------|-7-------7-------|
   A|-5-------5-------|-5-------5-------|-5-------5-------|-5-------5-------|
   E|-----------------|-----------------|-----------------|-----------------|
   
   e|-----------------|-----------------|-----------------|-----------------|
   B|-----------------|-----------------|-----------------|-----------------|
   G|-7-------7-------|-7-------7-------|-7-------7-------|-7---7---5---4---|
   D|-7-------7-------|-7-------7-------|-7-------7-------|-7---7---5---4---|
   A|-5-------5-------|-5-------5-------|-5-------5-------|-5---5---3---2---|
   E|-----------------|-----------------|-----------------|-----------------|
   
   e|-----------------|-----------------|-----------------|-----------------|
   B|-----------------|-----------------|-----------------|-----------------|
   G|-----------------|-----------------|-----------------|-----------------|
   D|-2-------2-------|-2-------2-------|-2-------2-------|-2-------2-------|
   A|-2-------2-------|-2-------2-------|-2-------2-------|-2-------2-------|
   E|-0-------0-------|-0-------0-------|-0-------0-------|-0-------0-------|
   
   e|-----------------|-----------------|-----------------|-----------------|
   B|-----------------|-----------------|-----------------|-----------------|
   G|-7-------7-------|-7-------7-------|-5-------5-------|-5-------4-------|
   D|-7-------7-------|-7-------7-------|-5-------5-------|-5-------4-------|
   A|-5-------5-------|-5-------5-------|-3-------3-------|-3-------2-------|
   E|-----------------|-----------------|-----------------|-----------------|